  0
SECTION
  2
HEADER
  9
$ACADVER
  1
AC1014
  9
$DWGCODEPAGE
  3
ANSI_1252
  9
$INSBASE
 10
0.0
 20
0.0
 30
0.0
  9
$EXTMIN
 10
17.19295181
 20
64.02079596
  9
$EXTMAX
 10
25.07887218
 20
67.84593676
  9
$LIMMIN
 10
17.19295181
 20
64.02079596
  9
$LIMMAX
 10
25.07887218
 20
67.84593676
  9
$ORTHOMODE
 70
     0
  9
$REGENMODE
 70
     1
  9
$FILLMODE
 70
     1
  9
$QTEXTMODE
 70
     0
  9
$MIRRTEXT
 70
     1
  9
$DRAGMODE
 70
     2
  9
$LTSCALE
 40
0.001
  9
$OSMODE
 70
     0
  9
$ATTMODE
 70
     1
  9
$TEXTSIZE
 40
3.5
  9
$TRACEWID
 40
1.0
  9
$TEXTSTYLE
  7
STANDARD
  9
$CLAYER
  8
0
  9
$CELTYPE
  6
BYLAYER
  9
$CECOLOR
 62
   256
  9
$DIMSCALE
 40
1.0
  9
$DIMASZ
 40
2.79999995
  9
$DIMEXO
 40
5.0
  9
$DIMDLI
 40
10.0
  9
$DIMRND
 40
0.0
  9
$DIMDLE
 40
2.0
  9
$DIMEXE
 40
2.0
  9
$DIMTP
 40
0.0
  9
$DIMTM
 40
0.0
  9
$DIMTXT
 40
2.0
  9
$DIMCEN
 40
1.5
  9
$DIMTSZ
 40
0.0
  9
$DIMTOL
 70
     0
  9
$DIMLIM
 70
     0
  9
$DIMTIH
 70
     1
  9
$DIMTOH
 70
     0
  9
$DIMSE1
 70
     0
  9
$DIMSE2
 70
     0
  9
$DIMTAD
 70
     1
  9
$DIMZIN
 70
     8
  9
$DIMBLK
  1

  9
$DIMASO
 70
     1
  9
$DIMSHO
 70
     1
  9
$DIMPOST
  1

  9
$DIMAPOST
  1

  9
$DIMALT
 70
     0
  9
$DIMALTD
 70
     2
  9
$DIMALTF
 40
25.4
  9
$DIMLFAC
 40
1.0
  9
$DIMTOFL
 70
     0
  9
$DIMTVP
 40
0.0
  9
$DIMTIX
 70
     0
  9
$DIMSOXD
 70
     0
  9
$DIMSAH
 70
     0
  9
$DIMBLK1
  1

  9
$DIMBLK2
  1

  9
$DIMSTYLE
  2
*UNNAMED
  9
$DIMCLRD
 70
     9
  9
$DIMCLRE
 70
     9
  9
$DIMCLRT
 70
     7
  9
$DIMTFAC
 40
1.0
  9
$DIMGAP
 40
0.09
  9
$DIMUNIT
 70
     2
  9
$LUNITS
 70
     2
  9
$LUPREC
 70
     6
  9
$AXISMODE
 70
     0
  9
$AXISUNIT
 10
0.0
 20
0.0
  9
$SKETCHINC
 40
0.1
  9
$FILLETRAD
 40
0.0
  9
$AUNITS
 70
     0
  9
$AUPREC
 70
     0
  9
$MENU
  1
ACAD
  9
$ELEVATION
 40
0.0
  9
$PELEVATION
 40
0.0
  9
$THICKNESS
 40
0.0
  9
$LIMCHECK
 70
     0
  9
$BLIPMODE
 70
     1
  9
$CHAMFERA
 40
0.0
  9
$CHAMFERB
 40
0.0
  9
$SKPOLY
 70
     1
  9
$TDCREATE
 40
2455863.0000000000
  9
$TDUPDATE
 40
2455863.0000000000
  9
$TDINDWG
 40
0.0
  9
$TDUSRTIMER
 40
0.0
  9
$USRTIMER
 70
     1
  9
$ANGBASE
 50
0.0
  9
$ANGDIR
 70
     0
  9
$PDMODE
 70
     0
  9
$PDSIZE
 40
0.0
  9
$PLINEWID
 40
0.0
  9
$COORDS
 70
     2
  9
$SPLFRAME
 70
     0
  9
$SPLINETYPE
 70
     6
  9
$SPLINESEGS
 70
     8
  9
$ATTDIA
 70
     1
  9
$ATTREQ
 70
     1
  9
$HANDLING
 70
     1
  9
$HANDSEED
  5
      9B
  9
$SURFTAB1
 70
     6
  9
$SURFTAB2
 70
     6
  9
$SURFTYPE
 70
     6
  9
$SURFU
 70
     6
  9
$SURFV
 70
     6
  9
$UCSNAME
  2

  9
$UCSORG
 10
0.0
 20
0.0
 30
0.0
  9
$UCSXDIR
 10
1.0
 20
0.0
 30
0.0
  9
$UCSYDIR
 10
0.0
 20
1.0
 30
0.0
  9
$PUCSNAME
  2

  9
$PUCSORG
 10
0.0
 20
0.0
 30
0.0
  9
$PUCSXDIR
 10
1.0
 20
0.0
 30
0.0
  9
$PUCSYDIR
 10
0.0
 20
1.0
 30
0.0
  9
$USERI1
 70
     0
  9
$USERI2
 70
     0
  9
$USERI3
 70
     0
  9
$USERI4
 70
     0
  9
$USERI5
 70
     0
  9
$USERR1
 40
0.0
  9
$USERR2
 40
0.0
  9
$USERR3
 40
0.0
  9
$USERR4
 40
0.0
  9
$USERR5
 40
0.0
  9
$WORLDVIEW
 70
     1
  9
$SHADEDGE
 70
     3
  9
$SHADEDIF
 70
    70
  9
$TILEMODE
 70
     1
  9
$MAXACTVP
 70
    16
  9
$PINSBASE
 10
0.0
 20
0.0
 30
0.0
  9
$PLIMCHECK
 70
     0
  9
$PEXTMIN
 10
1.0000000000000E+20
 20
1.0000000000000E+20
 30
1.0000000000000E+20
  9
$PEXTMAX
 10
-1.0000000000000E+20
 20
-1.0000000000000E+20
 30
-1.0000000000000E+20
  9
$PLIMMIN
 10
0.0
 20
0.0
  9
$UNITMODE
 70
     0
  9
$VISRETAIN
 70
     0
  9
$MEASUREMENT
 70
     1
  0
ENDSEC
  0
SECTION
  2
TABLES
  0
TABLE
  2
VPORT
  5
9
100
AcDbSymbolTable
 70
     1
  0
ENDTAB
  0
TABLE
  2
STYLE
  5
A
100
AcDbSymbolTable
 70
     3
  0
STYLE
  5
B
100
AcDbSymbolTableRecord
100
AcDbTextStyleTableRecord
  2
STANDARD
 70
     0
 40
0.0
 41
1.0
 50
0.0
 71
     0
 42
3.5
  3
MONOTXT
  4

  0
STYLE
  5
C
100
AcDbSymbolTableRecord
100
AcDbTextStyleTableRecord
  2
CADWORK1
 70
     0
 40
0.0
 41
1.0
 50
0.0
 71
     0
 42
3.5
  3
MONOTXT
  4

  0
STYLE
  5
D
100
AcDbSymbolTableRecord
100
AcDbTextStyleTableRecord
  2
CADWORK2
 70
     0
 40
0.0
 41
0.80000001
 50
0.0
 71
     0
 42
3.5
  3
ROMANS
  4

  0
STYLE
  5
E
100
AcDbSymbolTableRecord
100
AcDbTextStyleTableRecord
  2
MONOTXT
 70
     0
 40
0.0
 41
1.0
 50
0.0
 71
     0
 42
3.5
  3
MONOTXT
  4

  0
ENDTAB
  0
TABLE
  2
LTYPE
  5
F
100
AcDbSymbolTable
 70
    10
  0
LTYPE
  5
10
100
AcDbSymbolTableRecord
100
AcDbLinetypeTableRecord
  2
BYBLOCK
 70
    64
  3

 72
    65
 73
     0
 40
0.0
  0
LTYPE
  5
11
100
AcDbSymbolTableRecord
100
AcDbLinetypeTableRecord
  2
BYLAYER
 70
    64
  3

 72
    65
 73
     0
 40
0.0
  0
LTYPE
  5
12
100
AcDbSymbolTableRecord
100
AcDbLinetypeTableRecord
  2
CONTINUOUS
 70
    64
  3
Solid line
 72
    65
 73
     0
 40
0.0
  0
LTYPE
  5
13
100
AcDbSymbolTableRecord
100
AcDbLinetypeTableRecord
  2
HIDDEN
 70
    64
  3
__ __ __ __ __ __ __ __ __ __ __ __ __ __ __ __
 72
    65
 73
     2
 40
1.875
 49
1.25
 74
     0
 49
-0.625
 74
     0
  0
LTYPE
  5
14
100
AcDbSymbolTableRecord
100
AcDbLinetypeTableRecord
  2
DAL
 70
    64
  3
Solid line (for MAPS)
 72
    65
 73
     0
 40
0.0
  0
LTYPE
  5
15
100
AcDbSymbolTableRecord
100
AcDbLinetypeTableRecord
  2
MUR
 70
    64
  3
Solid line (for MAPS)
 72
    65
 73
     0
 40
0.0
  0
LTYPE
  5
16
100
AcDbSymbolTableRecord
100
AcDbLinetypeTableRecord
  2
SOM
 70
    64
  3
Solid line (for MAPS)
 72
    65
 73
     0
 40
0.0
  0
LTYPE
  5
17
100
AcDbSymbolTableRecord
100
AcDbLinetypeTableRecord
  2
COL
 70
    64
  3
Solid line (for MAPS)
 72
    65
 73
     0
 40
0.0
  0
LTYPE
  5
18
100
AcDbSymbolTableRecord
100
AcDbLinetypeTableRecord
  2
LGN
 70
    64
  3
Solid line (for MAPS)
 72
    65
 73
     0
 40
0.0
  0
LTYPE
  5
19
100
AcDbSymbolTableRecord
100
AcDbLinetypeTableRecord
  2
PNT
 70
    64
  3
Solid line (for MAPS)
 72
    65
 73
     0
 40
0.0
  0
ENDTAB
  0
TABLE
  2
LAYER
  5
1A
100
AcDbSymbolTable
 70
     1
  0
LAYER
  5
1B
100
AcDbSymbolTableRecord
100
AcDbLayerTableRecord
  2
0
 70
     0
 62
     1
  6
CONTINUOUS
370
    -3
  0
LAYER
  5
1C
100
AcDbSymbolTableRecord
100
AcDbLayerTableRecord
  2
LAYER_1
 70
     0
 62
     7
  6
CONTINUOUS
370
    -3
  0
ENDTAB
  0
TABLE
  2
VIEW
  5
1D
100
AcDbSymbolTable
 70
     0
  0
ENDTAB
  0
TABLE
  2
UCS
  5
1E
100
AcDbSymbolTable
 70
     0
  0
ENDTAB
  0
TABLE
  2
APPID
  5
1F
100
AcDbSymbolTable
 70
     1
  0
APPID
  5
20
100
AcDbSymbolTableRecord
100
AcDbRegAppTableRecord
  2
ACAD
 70
     0
  0
ENDTAB
  0
TABLE
  2
DIMSTYLE
  5
21
100
AcDbSymbolTable
 70
     0
  0
ENDTAB
  0
TABLE
  2
BLOCK_RECORD
  5
22
100
AcDbSymbolTable
 70
     0
  0
BLOCK_RECORD
  5
23
100
AcDbSymbolTableRecord
100
AcDbBlockTableRecord
  2
*MODEL_SPACE
  0
BLOCK_RECORD
  5
24
100
AcDbSymbolTableRecord
100
AcDbBlockTableRecord
  2
*PAPER_SPACE
  0
BLOCK_RECORD
  5
25
100
AcDbSymbolTableRecord
100
AcDbBlockTableRecord
  2
CDWK_EXTR_0
  0
BLOCK_RECORD
  5
26
100
AcDbSymbolTableRecord
100
AcDbBlockTableRecord
  2
CDWK_EXTR_1D
  0
BLOCK_RECORD
  5
27
100
AcDbSymbolTableRecord
100
AcDbBlockTableRecord
  2
CDWK_EXTR_1G
  0
BLOCK_RECORD
  5
28
100
AcDbSymbolTableRecord
100
AcDbBlockTableRecord
  2
CDWK_EXTR_2
  0
BLOCK_RECORD
  5
29
100
AcDbSymbolTableRecord
100
AcDbBlockTableRecord
  2
CDWK_EXTR_3
  0
BLOCK_RECORD
  5
2A
100
AcDbSymbolTableRecord
100
AcDbBlockTableRecord
  2
CDWK_EXTR_4
  0
BLOCK_RECORD
  5
2B
100
AcDbSymbolTableRecord
100
AcDbBlockTableRecord
  2
CDWK_PTTYP0
  0
ENDTAB
  0
ENDSEC
  0
SECTION
  2
BLOCKS
  0
BLOCK
  5
2C
100
AcDbEntity
  8
0
100
AcDbBlockBegin
  2
*MODEL_SPACE
 70
     0
 10
0.0
 20
0.0
 30
0.0
  3
*MODEL_SPACE
  1

  0
ENDBLK
  5
2D
100
AcDbEntity
100
AcDbBlockEnd
  0
BLOCK
  5
2E
100
AcDbEntity
  8
0
100
AcDbBlockBegin
  2
*PAPER_SPACE
 70
     0
 10
0.0
 20
0.0
 30
0.0
  3
*PAPER_SPACE
  1

  0
ENDBLK
  5
2F
100
AcDbEntity
100
AcDbBlockEnd
  0
BLOCK
  5
30
100
AcDbEntity
  8
0
100
AcDbBlockBegin
  2
CDWK_EXTR_0
 70
     0
 10
0.0
 20
0.0
 30
0.0
  3
CDWK_EXTR_0
  1

  4
Cadwork line-extremity
  0
LINE
  5
31
100
AcDbEntity
  8
0
 62
     0
370
    -2
100
AcDbLine
 10
0.0
 20
0.0
 30
0.0
 11
2.0
 21
0.5
 31
0.0
  0
LINE
  5
32
100
AcDbEntity
  8
0
 62
     0
370
    -2
100
AcDbLine
 10
0.0
 20
0.0
 30
0.0
 11
2.0
 21
-0.5
 31
0.0
  0
LINE
  5
33
100
AcDbEntity
  8
0
 62
     0
370
    -2
100
AcDbLine
 10
2.0
 20
0.5
 30
0.0
 11
2.0
 21
-0.5
 31
0.0
  0
ENDBLK
  5
34
100
AcDbEntity
100
AcDbBlockEnd
  0
BLOCK
  5
35
100
AcDbEntity
  8
0
100
AcDbBlockBegin
  2
CDWK_EXTR_1D
 70
     0
 10
0.0
 20
0.0
 30
0.0
  3
CDWK_EXTR_1D
  1

  4
Cadwork line-extremity
  0
LINE
  5
36
100
AcDbEntity
  8
0
 62
     0
370
    -2
100
AcDbLine
 10
0.0
 20
0.0
 30
0.0
 11
0.0
 21
1.0
 31
0.0
  0
LINE
  5
37
100
AcDbEntity
  8
0
 62
     0
370
    -2
100
AcDbLine
 10
0.0
 20
1.0
 30
0.0
 11
0.5
 21
1.5
 31
0.0
  0
LINE
  5
38
100
AcDbEntity
  8
0
 62
     0
370
    -2
100
AcDbLine
 10
0.5
 20
1.5
 30
0.0
 11
1.5
 21
1.5
 31
0.0
  0
ENDBLK
  5
39
100
AcDbEntity
100
AcDbBlockEnd
  0
BLOCK
  5
3A
100
AcDbEntity
  8
0
100
AcDbBlockBegin
  2
CDWK_EXTR_1G
 70
     0
 10
0.0
 20
0.0
 30
0.0
  3
CDWK_EXTR_1G
  1

  4
Cadwork line-extremity
  0
LINE
  5
3B
100
AcDbEntity
  8
0
 62
     0
370
    -2
100
AcDbLine
 10
0.0
 20
0.0
 30
0.0
 11
0.0
 21
-1.0
 31
0.0
  0
LINE
  5
3C
100
AcDbEntity
  8
0
 62
     0
370
    -2
100
AcDbLine
 10
0.0
 20
-1.0
 30
0.0
 11
0.5
 21
-1.5
 31
0.0
  0
LINE
  5
3D
100
AcDbEntity
  8
0
 62
     0
370
    -2
100
AcDbLine
 10
0.5
 20
-1.5
 30
0.0
 11
1.5
 21
-1.5
 31
0.0
  0
ENDBLK
  5
3E
100
AcDbEntity
100
AcDbBlockEnd
  0
BLOCK
  5
3F
100
AcDbEntity
  8
0
100
AcDbBlockBegin
  2
CDWK_EXTR_2
 70
     0
 10
0.0
 20
0.0
 30
0.0
  3
CDWK_EXTR_2
  1

  4
Cadwork line-extremity
  0
SOLID
  5
40
100
AcDbEntity
  8
0
 62
     0
100
AcDbTrace
 10
0.0
 20
0.0
 11
2.0
 21
0.5
 12
2.0
 22
-0.5
 13
2.0
 23
-0.5
  0
ENDBLK
  5
41
100
AcDbEntity
100
AcDbBlockEnd
  0
BLOCK
  5
42
100
AcDbEntity
  8
0
100
AcDbBlockBegin
  2
CDWK_EXTR_3
 70
     0
 10
0.0
 20
0.0
 30
0.0
  3
CDWK_EXTR_3
  1

  4
Cadwork line-extremity
  0
SOLID
  5
43
100
AcDbEntity
  8
0
 62
     0
100
AcDbTrace
 10
0.0
 20
0.0
 11
2.0
 21
0.5
 12
2.0
 22
-0.5
 13
2.0
 23
-0.5
  0
LINE
  5
44
100
AcDbEntity
  8
0
 62
     0
370
    -2
100
AcDbLine
 10
0.0
 20
1.0
 30
0.0
 11
0.0
 21
-1.0
 31
0.0
  0
ENDBLK
  5
45
100
AcDbEntity
100
AcDbBlockEnd
  0
BLOCK
  5
46
100
AcDbEntity
  8
0
100
AcDbBlockBegin
  2
CDWK_EXTR_4
 70
     0
 10
0.0
 20
0.0
 30
0.0
  3
CDWK_EXTR_4
  1

  4
Cadwork line-extremity
  0
HATCH
  5
47
100
AcDbEntity
  8
0
 62
     0
370
   211
100
AcDbHatch
 10
0.0
 20
0.0
 30
0.0
210
0.0
220
0.0
230
1.0
  2
SOLID
 70
     1
 71
     0
 91
        1
 92
        1
 93
        1
 72
     2
 10
0.0
 20
0.0
 40
0.5
 50
0.0
 51
360.0
 73
     1
 97
        0
 75
     0
 76
     1
 98
        1
 10
0.0
 20
0.0
  0
ENDBLK
  5
48
100
AcDbEntity
100
AcDbBlockEnd
  0
BLOCK
  5
49
100
AcDbEntity
  8
0
100
AcDbBlockBegin
  2
CDWK_PTTYP0
 70
     0
 10
0.0
 20
0.0
 30
0.0
  3
CDWK_PTTYP0
  1

  4
Cadwork point
  0
POINT
  5
4A
100
AcDbEntity
  8
0
 62
     0
100
AcDbPoint
 10
0.0
 20
0.0
 30
0.0
  0
ENDBLK
  5
4B
100
AcDbEntity
100
AcDbBlockEnd
  0
ENDSEC
  0
SECTION
  2
ENTITIES
  0
LINE
  5
4C
100
AcDbEntity
  8
LAYER_1
 62
     1
  6
CONTINUOUS
370
    -2
100
AcDbLine
 10
19.25404404
 20
67.84585886
 30
0.0
 11
19.43904404
 21
67.82585886
 31
0.0
  0
LINE
  5
4D
100
AcDbEntity
  8
LAYER_1
 62
     1
  6
CONTINUOUS
370
    -2
100
AcDbLine
 10
19.49404404
 20
67.52585886
 30
0.0
 11
19.49404404
 21
67.28502271
 31
0.0
  0
ARC
  5
4E
100
AcDbEntity
  8
LAYER_1
 62
     1
  6
CONTINUOUS
370
    -3
100
AcDbCircle
 10
19.49404404
 20
67.28502271
 30
0.0
 40
0.94
100
AcDbArc
 50
270.00001002
 51
285.42386222
  0
LINE
  5
4F
100
AcDbEntity
  8
LAYER_1
 62
     1
  6
CONTINUOUS
370
    -2
100
AcDbLine
 10
19.16404404
 20
66.34502271
 30
0.0
 11
19.49404404
 21
66.34502271
 31
0.0
  0
LWPOLYLINE
  5
50
100
AcDbEntity
  8
LAYER_1
 62
     1
  6
CONTINUOUS
370
    -3
100
AcDbPolyline
 90
        3
 70
     0
 43
0.0
 10
19.49404404
 20
67.52585886
 10
19.49404404
 20
67.28502271
 10
19.74404404
 20
66.37887702
  0
LINE
  5
51
100
AcDbEntity
  8
LAYER_1
 62
     1
  6
CONTINUOUS
370
    -2
100
AcDbLine
 10
19.16404404
 20
67.77585886
 30
0.0
 11
19.16404404
 21
66.34502271
 31
0.0
  0
LWPOLYLINE
  5
52
100
AcDbEntity
  8
LAYER_1
 62
     1
  6
CONTINUOUS
370
    -3
100
AcDbPolyline
 90
        3
 70
     0
 43
0.0
 10
19.16404404
 20
67.77585886
 42
0.04423499
 10
19.17753686
 20
67.77466281
 42
0.39331219
 10
19.25404404
 20
67.84585886
  0
LINE
  5
53
100
AcDbEntity
  8
LAYER_1
 62
     1
  6
CONTINUOUS
370
    -2
100
AcDbLine
 10
18.36120734
 20
67.65002041
 30
0.0
 11
18.36120734
 21
67.05002041
 31
0.0
  0
LINE
  5
54
100
AcDbEntity
  8
LAYER_1
 62
     1
  6
CONTINUOUS
370
    -2
100
AcDbLine
 10
18.36120734
 20
67.65002041
 30
0.0
 11
17.76120734
 21
67.47002041
 31
0.0
  0
LINE
  5
55
100
AcDbEntity
  8
LAYER_1
 62
     1
  6
CONTINUOUS
370
    -2
100
AcDbLine
 10
18.36120734
 20
67.05002041
 30
0.0
 11
17.76120734
 21
67.23002041
 31
0.0
  0
LWPOLYLINE
  5
56
100
AcDbEntity
  8
LAYER_1
 62
     1
  6
CONTINUOUS
370
    -3
100
AcDbPolyline
 90
        4
 70
     0
 43
0.0
 10
17.76120734
 20
67.47002041
 10
17.61120734
 20
67.51502041
 10
17.61120734
 20
67.18502041
 10
17.76120734
 20
67.23002041
  0
LINE
  5
57
100
AcDbEntity
  8
LAYER_1
 62
     7
  6
CONTINUOUS
370
    -2
100
AcDbLine
 10
17.19295181
 20
65.99182
 30
0.0
 11
17.19295181
 21
64.49182
 31
0.0
  0
LWPOLYLINE
  5
58
100
AcDbEntity
  8
LAYER_1
 62
     7
  6
CONTINUOUS
370
    -3
100
AcDbPolyline
 90
       21
 70
     0
 43
0.0
 10
17.19295181
 20
64.49182
 10
20.74951938
 20
64.49588211
 10
20.56128879
 20
64.60485772
 10
20.85849499
 20
64.69401958
 10
20.43249943
 20
64.76336769
 10
20.90802936
 20
64.85252956
 10
20.6306369
 20
64.94169142
 10
20.78914688
 20
65.0209464
 10
20.62073003
 20
65.10020139
 10
20.79905375
 20
65.19927013
 10
20.56128879
 20
65.28843199
 10
20.69007814
 20
65.40731447
 10
20.47212693
 20
65.48656946
 10
20.91793623
 20
65.58563819
 10
20.53156817
 20
65.65498631
 10
20.72970564
 20
65.77386879
 10
20.51175442
 20
65.82340315
 10
20.80896062
 20
65.83331003
 10
20.53156817
 20
65.93237876
 10
20.75942626
 20
65.99182
 10
17.19295181
 20
65.99182
  0
LWPOLYLINE
  5
59
100
AcDbEntity
  8
LAYER_1
 62
     1
  6
CONTINUOUS
370
    -3
100
AcDbPolyline
 90
        3
 70
     0
 43
0.0
 10
17.28609706
 20
65.99278895
 10
17.47109706
 20
65.97278895
 10
17.52609706
 20
65.67278895
  0
LINE
  5
5A
100
AcDbEntity
  8
LAYER_1
 62
     1
  6
CONTINUOUS
370
    -2
100
AcDbLine
 10
17.52609706
 20
65.67278895
 30
0.0
 11
17.52609706
 21
65.43195279
 31
0.0
  0
ARC
  5
5B
100
AcDbEntity
  8
LAYER_1
 62
     1
  6
CONTINUOUS
370
    -3
100
AcDbCircle
 10
17.52609706
 20
65.43195279
 30
0.0
 40
0.94
100
AcDbArc
 50
270.00001002
 51
285.42386222
  0
LINE
  5
5C
100
AcDbEntity
  8
LAYER_1
 62
     1
  6
CONTINUOUS
370
    -2
100
AcDbLine
 10
17.19609706
 20
64.49195279
 30
0.0
 11
17.52609706
 21
64.49195279
 31
0.0
  0
LWPOLYLINE
  5
5D
100
AcDbEntity
  8
LAYER_1
 62
     1
  6
CONTINUOUS
370
    -3
100
AcDbPolyline
 90
        3
 70
     0
 43
0.0
 10
17.52609706
 20
65.67278895
 10
17.52609706
 20
65.43195279
 10
17.77609706
 20
64.52580711
  0
LINE
  5
5E
100
AcDbEntity
  8
LAYER_1
 62
     1
  6
CONTINUOUS
370
    -2
100
AcDbLine
 10
17.19609706
 20
65.92278895
 30
0.0
 11
17.19609706
 21
64.49195279
 31
0.0
  0
LWPOLYLINE
  5
5F
100
AcDbEntity
  8
LAYER_1
 62
     1
  6
CONTINUOUS
370
    -3
100
AcDbPolyline
 90
        3
 70
     0
 43
0.0
 10
17.19609706
 20
65.92278895
 42
0.04423499
 10
17.20958988
 20
65.9215929
 42
0.39331219
 10
17.28609706
 20
65.99278895
  0
LINE
  5
60
100
AcDbEntity
  8
LAYER_1
 62
     1
  6
CONTINUOUS
370
    -2
100
AcDbLine
 10
18.07710935
 20
64.51141643
 30
0.0
 11
18.00710935
 21
64.51141643
 31
0.0
  0
ARC
  5
61
100
AcDbEntity
  8
LAYER_1
 62
     1
  6
CONTINUOUS
370
    -3
100
AcDbCircle
 10
18.00710935
 20
64.49141643
 30
0.0
 40
0.02
100
AcDbArc
 50
90.0
 51
180.0
  0
LWPOLYLINE
  5
62
100
AcDbEntity
  8
LAYER_1
 62
     1
  6
CONTINUOUS
370
    -3
100
AcDbPolyline
 90
        3
 70
     0
 43
0.0
 10
17.98710935
 20
64.49141643
 10
17.80210935
 20
64.51141643
 10
17.74710935
 20
64.81141643
  0
LINE
  5
63
100
AcDbEntity
  8
LAYER_1
 62
     1
  6
CONTINUOUS
370
    -2
100
AcDbLine
 10
18.07710935
 20
64.51141643
 30
0.0
 11
18.07710935
 21
65.99225259
 31
0.0
  0
LINE
  5
64
100
AcDbEntity
  8
LAYER_1
 62
     1
  6
CONTINUOUS
370
    -2
100
AcDbLine
 10
17.74710935
 20
64.81141643
 30
0.0
 11
17.74710935
 21
65.05225259
 31
0.0
  0
ARC
  5
65
100
AcDbEntity
  8
LAYER_1
 62
     1
  6
CONTINUOUS
370
    -3
100
AcDbCircle
 10
17.74710935
 20
65.05225259
 30
0.0
 40
0.94
100
AcDbArc
 50
90.0
 51
105.4238522
  0
LINE
  5
66
100
AcDbEntity
  8
LAYER_1
 62
     1
  6
CONTINUOUS
370
    -2
100
AcDbLine
 10
18.07710935
 20
65.99225259
 30
0.0
 11
17.74710935
 21
65.99225259
 31
0.0
  0
LWPOLYLINE
  5
67
100
AcDbEntity
  8
LAYER_1
 62
     1
  6
CONTINUOUS
370
    -3
100
AcDbPolyline
 90
        3
 70
     0
 43
0.0
 10
17.74710935
 20
64.81141643
 10
17.74710935
 20
65.05225259
 10
17.49710935
 20
65.95839828
  0
LWPOLYLINE
  5
68
100
AcDbEntity
  8
LAYER_1
 62
     1
  6
CONTINUOUS
370
    -3
100
AcDbPolyline
 90
        3
 70
     0
 43
0.0
 10
18.20056856
 20
65.99446051
 10
18.38556856
 20
65.97446051
 10
18.44056856
 20
65.67446051
  0
LINE
  5
69
100
AcDbEntity
  8
LAYER_1
 62
     1
  6
CONTINUOUS
370
    -2
100
AcDbLine
 10
18.44056856
 20
65.67446051
 30
0.0
 11
18.44056856
 21
65.43362435
 31
0.0
  0
ARC
  5
6A
100
AcDbEntity
  8
LAYER_1
 62
     1
  6
CONTINUOUS
370
    -3
100
AcDbCircle
 10
18.44056856
 20
65.43362435
 30
0.0
 40
0.94
100
AcDbArc
 50
270.00001002
 51
285.42386222
  0
LINE
  5
6B
100
AcDbEntity
  8
LAYER_1
 62
     1
  6
CONTINUOUS
370
    -2
100
AcDbLine
 10
18.11056856
 20
64.49362435
 30
0.0
 11
18.44056856
 21
64.49362435
 31
0.0
  0
LWPOLYLINE
  5
6C
100
AcDbEntity
  8
LAYER_1
 62
     1
  6
CONTINUOUS
370
    -3
100
AcDbPolyline
 90
        3
 70
     0
 43
0.0
 10
18.44056856
 20
65.67446051
 10
18.44056856
 20
65.43362435
 10
18.69056856
 20
64.52747867
  0
LINE
  5
6D
100
AcDbEntity
  8
LAYER_1
 62
     1
  6
CONTINUOUS
370
    -2
100
AcDbLine
 10
18.11056856
 20
65.92446051
 30
0.0
 11
18.11056856
 21
64.49362435
 31
0.0
  0
LWPOLYLINE
  5
6E
100
AcDbEntity
  8
LAYER_1
 62
     1
  6
CONTINUOUS
370
    -3
100
AcDbPolyline
 90
        3
 70
     0
 43
0.0
 10
18.11056856
 20
65.92446051
 42
0.04423499
 10
18.12406137
 20
65.92326446
 42
0.39331219
 10
18.20056856
 20
65.99446051
  0
LINE
  5
6F
100
AcDbEntity
  8
LAYER_1
 62
     1
  6
CONTINUOUS
370
    -2
100
AcDbLine
 10
18.99158085
 20
64.51308799
 30
0.0
 11
18.92158085
 21
64.51308799
 31
0.0
  0
ARC
  5
70
100
AcDbEntity
  8
LAYER_1
 62
     1
  6
CONTINUOUS
370
    -3
100
AcDbCircle
 10
18.92158085
 20
64.49308799
 30
0.0
 40
0.02
100
AcDbArc
 50
90.0
 51
180.0
  0
LWPOLYLINE
  5
71
100
AcDbEntity
  8
LAYER_1
 62
     1
  6
CONTINUOUS
370
    -3
100
AcDbPolyline
 90
        3
 70
     0
 43
0.0
 10
18.90158085
 20
64.49308799
 10
18.71658085
 20
64.51308799
 10
18.66158085
 20
64.81308799
  0
LINE
  5
72
100
AcDbEntity
  8
LAYER_1
 62
     1
  6
CONTINUOUS
370
    -2
100
AcDbLine
 10
18.99158085
 20
64.51308799
 30
0.0
 11
18.99158085
 21
65.99392415
 31
0.0
  0
LINE
  5
73
100
AcDbEntity
  8
LAYER_1
 62
     1
  6
CONTINUOUS
370
    -2
100
AcDbLine
 10
18.66158085
 20
64.81308799
 30
0.0
 11
18.66158085
 21
65.05392415
 31
0.0
  0
ARC
  5
74
100
AcDbEntity
  8
LAYER_1
 62
     1
  6
CONTINUOUS
370
    -3
100
AcDbCircle
 10
18.66158085
 20
65.05392415
 30
0.0
 40
0.94
100
AcDbArc
 50
90.0
 51
105.4238522
  0
LINE
  5
75
100
AcDbEntity
  8
LAYER_1
 62
     1
  6
CONTINUOUS
370
    -2
100
AcDbLine
 10
18.99158085
 20
65.99392415
 30
0.0
 11
18.66158085
 21
65.99392415
 31
0.0
  0
LWPOLYLINE
  5
76
100
AcDbEntity
  8
LAYER_1
 62
     1
  6
CONTINUOUS
370
    -3
100
AcDbPolyline
 90
        3
 70
     0
 43
0.0
 10
18.66158085
 20
64.81308799
 10
18.66158085
 20
65.05392415
 10
18.41158085
 20
65.96006984
  0
LWPOLYLINE
  5
77
100
AcDbEntity
  8
LAYER_1
 62
    30
  6
CONTINUOUS
370
    -3
100
AcDbPolyline
 90
        5
 70
     0
 43
0.0
 10
18.19837694
 20
66.93911467
 10
18.30837694
 20
66.93911467
 10
18.30837694
 20
66.82911467
 10
18.19837694
 20
66.82911467
 10
18.19837694
 20
66.93911467
  0
LINE
  5
78
100
AcDbEntity
  8
LAYER_1
 62
     1
  6
CONTINUOUS
370
    -2
100
AcDbLine
 10
19.00442484
 20
65.99303014
 30
0.0
 11
19.60442484
 21
65.99303014
 31
0.0
  0
LINE
  5
79
100
AcDbEntity
  8
LAYER_1
 62
     1
  6
CONTINUOUS
370
    -2
100
AcDbLine
 10
19.00442484
 20
65.99303014
 30
0.0
 11
19.18442484
 21
65.39303014
 31
0.0
  0
LINE
  5
7A
100
AcDbEntity
  8
LAYER_1
 62
     1
  6
CONTINUOUS
370
    -2
100
AcDbLine
 10
19.60442484
 20
65.99303014
 30
0.0
 11
19.42442484
 21
65.39303014
 31
0.0
  0
LWPOLYLINE
  5
7B
100
AcDbEntity
  8
LAYER_1
 62
     1
  6
CONTINUOUS
370
    -3
100
AcDbPolyline
 90
        4
 70
     0
 43
0.0
 10
19.18442484
 20
65.39303014
 10
19.13942484
 20
65.24303014
 10
19.46942484
 20
65.24303014
 10
19.42442484
 20
65.39303014
  0
LINE
  5
7C
100
AcDbEntity
  8
LAYER_1
 62
     1
  6
CONTINUOUS
370
    -2
100
AcDbLine
 10
19.01210031
 20
65.2401671
 30
0.0
 11
19.61210031
 21
65.2401671
 31
0.0
  0
LINE
  5
7D
100
AcDbEntity
  8
LAYER_1
 62
     1
  6
CONTINUOUS
370
    -2
100
AcDbLine
 10
19.01210031
 20
65.2401671
 30
0.0
 11
19.19210031
 21
64.6401671
 31
0.0
  0
LINE
  5
7E
100
AcDbEntity
  8
LAYER_1
 62
     1
  6
CONTINUOUS
370
    -2
100
AcDbLine
 10
19.61210031
 20
65.2401671
 30
0.0
 11
19.43210031
 21
64.6401671
 31
0.0
  0
LWPOLYLINE
  5
7F
100
AcDbEntity
  8
LAYER_1
 62
     1
  6
CONTINUOUS
370
    -3
100
AcDbPolyline
 90
        4
 70
     0
 43
0.0
 10
19.19210031
 20
64.6401671
 10
19.14710031
 20
64.4901671
 10
19.47710031
 20
64.4901671
 10
19.43210031
 20
64.6401671
  0
LINE
  5
80
100
AcDbEntity
  8
LAYER_1
 62
     1
  6
CONTINUOUS
370
    -2
100
AcDbLine
 10
18.90089735
 20
67.84593676
 30
0.0
 11
18.71589735
 21
67.82593676
 31
0.0
  0
ARC
  5
81
100
AcDbEntity
  8
LAYER_1
 62
     1
  6
CONTINUOUS
370
    -3
100
AcDbCircle
 10
18.92089735
 20
67.84593676
 30
0.0
 40
0.02
100
AcDbArc
 50
180.00001002
 51
270.00001002
  0
LINE
  5
82
100
AcDbEntity
  8
LAYER_1
 62
     1
  6
CONTINUOUS
370
    -2
100
AcDbLine
 10
18.66089735
 20
67.52593676
 30
0.0
 11
18.66089735
 21
67.2851006
 31
0.0
  0
ARC
  5
83
100
AcDbEntity
  8
LAYER_1
 62
     1
  6
CONTINUOUS
370
    -3
100
AcDbCircle
 10
18.66089735
 20
67.2851006
 30
0.0
 40
0.94
100
AcDbArc
 50
254.57615782
 51
270.00001002
  0
LINE
  5
84
100
AcDbEntity
  8
LAYER_1
 62
     1
  6
CONTINUOUS
370
    -2
100
AcDbLine
 10
18.99089735
 20
66.3451006
 30
0.0
 11
18.66089735
 21
66.3451006
 31
0.0
  0
LINE
  5
85
100
AcDbEntity
  8
LAYER_1
 62
     1
  6
CONTINUOUS
370
    -2
100
AcDbLine
 10
18.99089735
 20
67.46899377
 30
0.0
 11
18.99089735
 21
66.3451006
 31
0.0
  0
LINE
  5
86
100
AcDbEntity
  8
LAYER_1
 62
     1
  6
CONTINUOUS
370
    -2
100
AcDbLine
 10
18.99089735
 20
67.82593676
 30
0.0
 11
18.99089735
 21
67.46899377
 31
0.0
  0
LINE
  5
87
100
AcDbEntity
  8
LAYER_1
 62
     1
  6
CONTINUOUS
370
    -2
100
AcDbLine
 10
18.99071935
 20
67.82593676
 30
0.0
 11
18.92089735
 21
67.82593676
 31
0.0
  0
LINE
  5
88
100
AcDbEntity
  8
LAYER_1
 62
     1
  6
CONTINUOUS
370
    -2
100
AcDbLine
 10
18.99089735
 20
67.82593676
 30
0.0
 11
18.99071935
 21
67.82593676
 31
0.0
  0
LINE
  5
89
100
AcDbEntity
  8
LAYER_1
 62
     1
  6
CONTINUOUS
370
    -2
100
AcDbLine
 10
18.66089735
 20
67.2851006
 30
0.0
 11
18.41089735
 21
66.37895491
 31
0.0
  0
LINE
  5
8A
100
AcDbEntity
  8
LAYER_1
 62
     1
  6
CONTINUOUS
370
    -2
100
AcDbLine
 10
18.66089735
 20
67.52593676
 30
0.0
 11
18.66089735
 21
67.2851006
 31
0.0
  0
LINE
  5
8B
100
AcDbEntity
  8
LAYER_1
 62
     4
  6
CONTINUOUS
370
    -2
100
AcDbLine
 10
18.71589735
 20
67.82593676
 30
0.0
 11
18.66089735
 21
67.52593676
 31
0.0
  0
LINE
  5
8C
100
AcDbEntity
  8
LAYER_1
 62
     4
  6
CONTINUOUS
370
    -2
100
AcDbLine
 10
19.43904404
 20
67.82585886
 30
0.0
 11
19.49404404
 21
67.52585886
 31
0.0
  0
LINE
  5
8D
100
AcDbEntity
  8
LAYER_1
 62
     5
  6
CONTINUOUS
370
    -2
100
AcDbLine
 10
19.09601138
 20
67.84285832
 30
0.0
 11
19.09601138
 21
67.27164045
 31
0.0
  0
LINE
  5
8E
100
AcDbEntity
  8
LAYER_1
 62
     3
  6
CONTINUOUS
370
    -2
100
AcDbLine
 10
19.49495719
 20
67.52853738
 30
0.0
 11
19.16552466
 21
67.52853738
 31
0.0
  0
LINE
  5
8F
100
AcDbEntity
  8
LAYER_1
 62
   106
  6
CONTINUOUS
370
    -2
100
AcDbLine
 10
19.49495719
 20
67.27768509
 30
0.0
 11
19.16552466
 21
67.27768509
 31
0.0
  0
LINE
  5
90
100
AcDbEntity
  8
LAYER_1
 62
     2
  6
CONTINUOUS
370
    -2
100
AcDbLine
 10
18.35881519
 20
67.36230782
 30
0.0
 11
17.76187234
 21
67.36205332
 31
0.0
  0
LINE
  5
91
100
AcDbEntity
  8
LAYER_1
 62
   190
  6
CONTINUOUS
370
    -2
100
AcDbLine
 10
17.76187234
 20
67.36205332
 30
0.0
 11
17.61144607
 21
67.36128737
 31
0.0
  0
TEXT
  5
92
100
AcDbEntity
  8
LAYER_1
 62
     1
370
    -3
100
AcDbText
 10
19.5400747
 20
67.67601329
 30
0.0
 40
0.09
  1
Hellblau: Armansatz, 30cm. (Armumfang hinten: 60cm)
  7
CADWORK2
 50
0.0
 41
1.24999998
 51
0.0
100
AcDbText
  0
TEXT
  5
93
100
AcDbEntity
  8
LAYER_1
 62
     1
370
    -3
100
AcDbText
 10
19.56447047
 20
67.46506873
 30
0.0
 40
0.09
  1
Blau: Distanz Schulter bis Hüfte.
  7
CADWORK2
 50
0.0
 41
1.24999998
 51
0.0
100
AcDbText
  0
TEXT
  5
94
100
AcDbEntity
  8
LAYER_1
 62
     1
370
    -3
100
AcDbText
 10
19.59469364
 20
67.28977435
 30
0.0
 40
0.09
  1
Hellgrün: Brustumfang geteilt durch vier (Vier Stoffstücke)
  7
CADWORK2
 50
0.0
 41
1.24999998
 51
0.0
100
AcDbText
  0
TEXT
  5
95
100
AcDbEntity
  8
LAYER_1
 62
     1
370
    -3
100
AcDbText
 10
19.61887218
 20
67.07821218
 30
0.0
 40
0.09
  1
Dunkelgrün: Bauchumfang geteilt durch vier (Vier Stoffstücke)
  7
CADWORK2
 50
0.0
 41
1.24999998
 51
0.0
100
AcDbText
  0
TEXT
  5
96
100
AcDbEntity
  8
LAYER_1
 62
     1
370
    -3
100
AcDbText
 10
19.68466753
 20
66.88768363
 30
0.0
 40
0.09
  1
Orange: Unter dem Arm einsetzen, 11x11cm
  7
CADWORK2
 50
0.0
 41
1.24999998
 51
0.0
100
AcDbText
  0
TEXT
  5
97
100
AcDbEntity
  8
LAYER_1
 62
     1
370
    -3
100
AcDbText
 10
19.73587305
 20
66.68796572
 30
0.0
 40
0.09
  1
Gelb: Armlänge bis Handgelenk.
  7
CADWORK2
 50
0.0
 41
1.24999998
 51
0.0
100
AcDbText
  0
TEXT
  5
98
100
AcDbEntity
  8
LAYER_1
 62
     1
370
    -3
100
AcDbText
 10
19.78040589
 20
66.45766326
 30
0.0
 40
0.09
  1
Violett: Überschlag der Ärmel
  7
CADWORK2
 50
0.0
 41
1.24999998
 51
0.0
100
AcDbText
  0
TEXT
  5
99
100
AcDbEntity
  8
LAYER_1
 62
     1
370
    -3
100
AcDbText
 10
17.2453498
 20
64.19932104
 30
0.0
 40
0.09
  1
Stoffbedarf bei einer Stoffbahnbreite von ~150cm: 240cm.
  7
CADWORK2
 50
0.0
 41
1.24999998
 51
0.0
100
AcDbText
  0
TEXT
  5
9A
100
AcDbEntity
  8
LAYER_1
 62
     1
370
    -3
100
AcDbText
 10
17.23642355
 20
64.02079596
 30
0.0
 40
0.09
  1
Länge des Rockes und Armlänge mit Überschlag ergibt sich aus der Stoffbahnbreite
  7
CADWORK2
 50
0.0
 41
1.24999998
 51
0.0
100
AcDbText
  0
ENDSEC
  0
SECTION
  2
OBJECTS
  0
DICTIONARY
  5
1
100
AcDbDictionary
  3
ACAD_GROUP
350
2
  3
ACAD_MLINESTYLE
350
3
  0
DICTIONARY
  5
2
102
{CDWK_REACTORS
330
1
102
}
100
AcDbDictionary
  0
DICTIONARY
  5
3
102
{CDWK_REACTORS
330
1
102
}
100
AcDbDictionary
  3
STANDARD
350
4
  0
MLINESTYLE
  5
4
102
{CDWK_REACTORS
330
3
102
}
100
AcDbMlineStyle
  2
STANDARD
 70
     0
  3

 62
     0
 51
90.0
 52
90.0
 71
     2
 49
0.5
 62
   256
  6
BYLAYER
 49
-0.5
 62
   256
  6
BYLAYER
  0
ENDSEC
  0
EOF
